Come As You Are Guitar Tab | Easy Guitar Tab

0
106
come as you are guitar chords

Come As You Are Guitar Tab


Song: Come As You Are

Artist: Nirvana

Difficulty: Expert


[Intro/Main Riff]
 
D|-------|-----------------|-----------------|
A|-------|-----------------|-----------------|
F|-------|-----------------|-----------------|
C|-------|-----------------|-----------------|
G|-------|-----0---0-------|---2-------2-----|
D|-0-0-1-|-2-----2---2-2-1-|-0---0-0-----0-1-|
 
D|-----------------|-----------------|
A|-----------------|-----------------|
F|-----------------|-----------------|
C|-----------------|-----------------| x3
G|-----0---0-------|---2-------2-----|
D|-2-----2---2-2-1-|-0---0-0-----0-1-|
 
 
[Verse]
 
D|-----------------|-----------------|
A|-----------------|-----------------|
F|-----------------|-----------------|
C|-----------------|-----------------| x7
G|-----0---0-------|---2-------2-----|
D|-2-----2---2-2-1-|-0---0-0-----0-1-|
 
                           E5
D|-----------------|-------0---0-0---|
A|-----------------|-------0---0-0---|
F|-----------------|-------x---x-x-0-|
C|-----------------|-------2---2-2-0-|
G|-----0---0-------|---2---2---2-2-0-|
D|-2-----2---2-2-1-|-0---0-----------|
 
 
[Pre-Chorus]
 
   F#sus4            A
D|-------2---------|-----------------|
A|-------2---------|---2---2---------|
F|-------4-------0-|-2-2-2-2-----2-0-|
C|-4---4-------4-0-|-2-2-2-2-----2-0-| x3
G|-4---4-------4-0-|-0-0-0-0-----0-0-|
D|-2---2-------2---|-----------------|
 
   F#sus4            A
D|-------2---------|-----------------|
A|-------2---------|---2---2---------|
F|-------4-------0-|-2-2-2-2---------|
C|-4---4-------4-0-|-2-2-2-2---------|
G|-4---4-------4-0-|-0-0-0-0---------|
D|-2---2-------2---|-----------0-0-1-|
 
 
[Verse]
 
D|-----------------|-----------------|
A|-----------------|-----------------|
F|-----------------|-----------------|
C|-----------------|-----------------| x7
G|-----0---0-------|---2-------2-----|
D|-2-----2---2-2-1-|-0---0-0-----0-1-|
 
                           E5
D|-----------------|-------0---0-0---|
A|-----------------|-------0---0-0---|
F|-----------------|-------x---x-x-0-|
C|-----------------|-------2---2-2-0-|
G|-----0---0-------|---2---2---2-2-0-|
D|-2-----2---2-2-1-|-0---0-----------|
 
 
[Pre-Chorus]
 
   F#sus4            A
D|-------2---------|-----------------|
A|-------2---------|---2---2---------|
F|-------4-------0-|-2-2-2-2-----2-0-|
C|-4---4-------4-0-|-2-2-2-2-----2-0-| x3
G|-4---4-------4-0-|-0-0-0-0-----0-0-|
D|-2---2-------2---|-----------------|
 
   F#sus4            A
D|-------2---------|-----------------|
A|-------2---------|-----2-2-2-2-2---|
F|-------4-------0-|-2---2-2-2-2-2-0-|
C|-4---4-------4-0-|-2---2-2-2-2-2-0-|
G|-4---4-------4-0-|-0---0-0-0-0-0-0-|
D|-2---2-------2---|-----------------|
 
 
[Chorus]
 
   B5                D5
D|-----------------|-----------------|
A|-----------------|-3---3-3---3-3---|
F|-4---4-4---4-4-0-|-2---2-2---2-2-0-|
C|-4---4-4---4-4-0-|-0---0-0---0-0-0-| x3
G|-2---2-2---2-2-0-|---------------0-|
D|-----------------|-----------------|
 
   B5                D5
D|-----------------|-----------------|
A|-----------------|-3---3-3---------|
F|-4---4-4---4-4-0-|-2---2-2---------|
C|-4---4-4---4-4-0-|-0---0-0---------|
G|-2---2-2---2-2-0-|-----------------|
D|-----------------|-----------0-0-1-|
 
 
[Main Riff]
 
D|-----------------|-----------------|
A|-----------------|-----------------|
F|-----------------|-----------------|
C|-----------------|-----------------| x2
G|-----0---0-------|---2-------2-----|
D|-2-----2---2-2-1-|-0---0-0-----0-1-|
 
 
[Solo]
 
                                                       F
D|-----------------|-----------------|------------------|-----------------|
A|-----------------|-----------------|----------------0-|(0)--------------|
F|-6~----9~--11~-\-|-6~----9~--11~-\-|-6~----9~--11--11b|(11)---11--9--\--|
C|-----------------|-----------------|------------------|-----------------| x4
G|-----------------|-----------------|------------------|-----------------|
D|-----------------|-----------------|------------------|-----------------|
 
 
[Pre-Chorus]
 
   F#sus4            A
D|-------2---------|-----------------|
A|-------2---------|---2---2---------|
F|-------4-------0-|-2-2-2-2-----2-0-|
C|-4---4-------4-0-|-2-2-2-2-----2-0-| x3
G|-4---4-------4-0-|-0-0-0-0-----0-0-|
D|-2---2-------2---|-----------------|
 
   F#sus4            A
D|-------2---------|-----------------|
A|-------2---------|-----2-2-2-2-2---|
F|-------4-------0-|-2-2-2-2-2-2-2-0-|
C|-4---4-------4-0-|-2-2-2-2-2-2-2-0-|
G|-4---4-------4-0-|-0-0-0-0-0-0-0-0-|
D|-2---2-------2---|-----------------|
 
 
[Chorus]
 
   B5                D5
D|-----------------|-----------------|
A|-----------------|-3---3-3---3-3---|
F|-4---4-4---4-4-0-|-2---2-2---2-2-0-|
C|-4---4-4---4-4-0-|-0---0-0---0-0-0-| x5
G|-2---2-2---2-2-0-|---------------0-|
D|-----------------|-----------------|
 
   B5                D5
D|-----------------|-----------------|
A|-----------------|-3---3-3---------|
F|-4---4-4---4-4-0-|-2---2-2---------|
C|-4---4-4---4-4-0-|-0---0-0---------|
G|-2---2-2---2-2-0-|-----------------|
D|-----------------|-----------0-0-1-|
 
 
[Outro]
 
D|-----------------|-----------------|
A|-----------------|-----------------|
F|-----------------|-----------------|
C|-----------------|-----------------| x4
G|-----0---0-------|---2-------2-----|
D|-2-----2---2-2-1-|-0---0-0-----0-1-|
 
   F#7sus4 (Let chord ring)
D|-0---------------|
A|-0---------------|
F|-x---------------|
C|-4---------------|
G|-4---------------|
D|-2---------------|

Is It Easy To Play Come As You Are Guitar Chords:

“Come as You Are” is a relatively simple song to play on guitar, and it is a good choice for a beginner or intermediate guitarists who are looking to learn a new song.

The song uses a basic chord progression in the key of D and is played with a moderate tempo.

The guitar part consists mainly of strumming chords and playing simple lead lines, and it does not require advanced techniques or skills.

As with any new piece of music, it is also important to practice slowly and consistently and to break the song down into smaller sections to focus on specific techniques or challenges.

About Come As You Are Song:

“Come as You Are” is a song by the American rock band Nirvana. It was released as the lead single from the band’s second studio album, “Nevermind,” in 1992.

The song, which Nirvana frontman Kurt Cobain wrote, features a distinctive guitar riff and lyrics that explore themes of alienation and the search for meaning.

It became one of Nirvana’s biggest hits and is one of the band’s best-known songs. “Come as You Are” has been covered by numerous artists and has been included in various film, television, and video game soundtracks.