Remember Me Guitar Tab | Easy Guitar Tabs

0
133
Remember Me Guitar Tab

Remember Me Guitar Tab

Remember Me Guitar Tab: “Remember Me” is a song from the Disney/Pixar film “Coco.” The song was written by Kristen Anderson-Lopez and Robert Lopez and is performed by the character Miguel, played by Anthony Gonzalez.

Read Also: Fly Me To The Moon Guitar Tab | East Guitar Tabs

Coco – Remember Me Lullaby Tab

e|------------------------|------------------------|
B|---1--1--1--1--1--1--1--|------------------------|
G|---0--0--0--0--0--0--0--|---5--5--5--5--5--5--5--|
D|---2--2--2--2--2--2--2--|---0--0--0--0--0--0--0--|
A|3-----------------------|---8--8--8--8--8--8--8--|
D|------------------------|6-----------------------|
 
Remember me; Though I have to say goodbye; Remember
 
e|------------------------|------------------------|
B|---1--1--1--1--1--1--1--|---1--1--1-----0--0--0--|
G|---0--0--0--0--0--0--0--|---1--1--1-----1--1--1--|
D|---2--2--2--2--2--2--2--|---3--3--3-----0--0--0--|
A|3-----------------------|1-----------------------|
D|------------------------|------------2-----------|
 
me; Don't let it make you cry; For
 
e|---5--5--3--3--0--0-----|---3--3--------3--3-----|
B|---5--5--5--5--------1--|------------------------|
G|---5--5--5--5--2--2-----|---3--3--------3--3-----|
D|------------------------|------------------------|
A|0-----------------------|1-----------3-----------|
D|------------------------|------------------------|
 
even if I'm far away I hold you in my heart; I
 
e|---3--3-----------------|------------------------|
B|---5--5--6--6--5--5--3--|5-----------------------|
G|---------7--7--5--5--3--|5-----------5-----------|
D|3-----------------------|6-----------7-----------|
A|------------------------|------------8-----------|
D|------------------------|6-----------5-----------|
 
sing a secret song to you each night we are apart; Remember
 
e|------------------------|------------------------|
B|---1--1--1--1--1--1--1--|------------------------|
G|---0--0--0--0--0--0--0--|---5--5--5--5--5--5--5--|
D|---2--2--2--2--2--2--2--|---0--0--0--0--0--0--0--|
A|3-----------------------|---8--8--8--8--8--8--8--|
D|------------------------|6-----------------------|
 
me; Though I have to travel far; Remember
 
e|------------------------|------------------------|
B|---1--1--1--1--1--1--0--|---------------1--1--1--|
G|---0--0--0--0--0--0--0--|---3--3--3-----3--3--3--|
D|---2--2--2--2--2--2--2--|---5--5--5-----2--2--2--|
A|3-----------------------|---5--5--5--3-----------|
D|------------------------|5-----------------------|
 
me; Each time you hear a sad guitar
 
e|---8--8--7--7-----------|------------------------|
B|---10-10-8--8--10-10-8--|8-----------------------|
G|---------------10-10-9--|9--9--9--7--5-----5-----|
D|------------------------|9-----9-----7-----6-----|
A|------------------------|7-----------0--7--------|
D|3-----------------------|------6-----------6-----|
 
Know that I'm with you the only way that I can be
 
e|---------------4--4--8--|10----------------------|
B|---1--1--4--4--4--4--9--|------------------------|
G|---1--1--5--5-----------|---------------0--1--1--|
D|------------------------|---------------1--1--3--|
A|------------------------|------------------------|
D|0-----------------------|--------5---------------|
 
Until you're in my arms again; Remember
 
e|------------------------|
B|------------1-----------|
G|------------0-----------|
D|------------2-----------|
A|------------3-----------|
D|------------------------|
 
me

How To Play Remember Me Guitar Tabs

To play Remember Me Guitar Tabs, you will need to learn the chords and the strumming pattern for the song. You can find guitar tabs for “Remember Me” online or in a guitar tab book. Here are the chords and a simple strumming pattern you can use to play the song:

Chords:

  • G major
  • C major
  • D major
  • Em7
  • B7
  • Am7

Strumming pattern:

  • D D U D U D U (down, down, up, down, up, down, up)

To play the chords, you will need to place your fingers on the correct frets and strings of the guitar neck. To play the strumming pattern, you will need to use a pick or your fingers to strum the strings in the correct rhythm.

Here’s a breakdown of how to play each chord:

G major: Place your middle finger on the 2nd fret of the low E string, your index finger on the 1st fret of the A string, and your ring finger on the 3rd fret of the high E string.

C major: Place your index finger on the 1st fret of the A string, your middle finger on the 2nd fret of the D string, and your ring finger on the 3rd fret of the B string.

D major: Place your index finger on the 2nd fret of the G string, your middle finger on the 3rd fret of the B string, and your ring finger on the 2nd fret of the high E string.

Em7: Place your middle finger on the 2nd fret of the G string, your index finger on the 2nd fret of the B string, and your ring finger on the 2nd fret of the high E string.

B7: Place your index finger on the 2nd fret of the G string, your middle finger on the 3rd fret of the B string, and your ring finger on the 3rd fret of the high E string.

Am7: Place your index finger on the 1st fret of the G string, your middle finger on the 2nd fret of the B string, and your ring finger on the 2nd fret of the high E string.

Once you’ve learned the chords and strumming pattern, you can practice playing “Remember Me” by following the chord progression and strumming along with the song.

About Remember Me Tabs By Lullaby

The song’s lyrics speak to the enduring power of memory and the importance of remembering loved ones who have passed away. The song’s chorus, “Remember me, though I have to say goodbye, remember me, don’t let it make you cry, for even if I’m far away, I hold you close within my heart, I sing a secret song to you, each night we are apart,” captures the bittersweet nature of loss and the ways in which memories can bring comfort and solace.

“Remember Me” has become a popular song and has been covered by numerous artists in a variety of styles. The song’s emotional and powerful lyrics, combined with its catchy melody, have made it a fan favorite and a standout track from the film.

In addition to its popularity in music, “Remember Me” has also had a significant cultural impact. The song was nominated for an Academy Award for Best Original Song and won a Grammy Award for Best Song Written for Visual Media. It has been featured in numerous television shows and commercials and has become a popular choice for wedding ceremonies and other special occasions.

Overall, “Remember Me” is a beautiful and moving song that speaks to the enduring power of memory and the importance of keeping loved ones close in our hearts.

If you liked our article on Remember Me Guitar Tab then share wit your guitar mates