La Vie En Rose Guitar Tab | Easy Guitar Tabs

0
116
Page of Pentacles Love
Page of Pentacles Love

La Vie En Rose Guitar Tab

“La Vie en Rose” is a popular French song written by Edith Piaf and Louiguy in 1947. The song has become a classic and has been covered by numerous artists in a variety of styles.

Read Also: Remember Me Guitar Tab | Easy Guitar Tabs

La Vie En Rose Tab

 
e|-------------------------------------------------------------------------|
B|---3-2-0-----3-2---0-------2--0----------2--0----------------------------|
G|---2-----2-----2-----2--------0--2----------0-------0-4-2----------------|
D|---0-------4-----------4-0---------4-0-0--------2/4-----2----------------|
A|--------------------------------------------------------0----------------|
E|---------------2--------------3-------------0----------------------------|
 
e|---0---------------------------------------------------------------------|
B|---0-3-2-0---3-2--2h3p2-----2--0--0h2p0-----2--0--2p1p0-3----------------|
G|---0-------0---0--------0------0--------0------0-----------2-------------|
D|---------------2----------2---------------2----------------2-------------|
A|-----------------------------------------------------------0-------------|
E|---0-----------0---------------0---------------3-------------------------|
 
e|-----------------------------------------------------0-0---0-0-----------|
B|---3-2-0-----3-2---0-------2--0----------3--3--0235--0---3-0-------------|
G|---2-----2-----2-----2--------0--2----------0--------0-----0-------------|
D|---0-------4-----------4-0---------4-0-0---------------------------------|
A|-------------------------------------------------------------------------|
E|---------------2--------------3-------------3--------0-----0-------------|
 
e|-----0-0---------0--0---0--------2--2-0----------------------------------|
B|--3--2---3-----3-3----3-3-3-0-3--2-2----3--------------------------------|
G|-----2------2----0------0--------0---------------------------------------|
D|-------------------------------------------------------------------------|
A|---------------------------------0---------------------------------------|
E|-----2------2----3------3------------------------------------------------|
 
 
************************************
 
| h  Hammer-on
| p  Pull-off
| /  Slide up
 
************************************

About La Vie en Rose Song

The song’s lyrics, which speak of love and the joy it brings, have made it a popular choice for romantic occasions. The song’s chorus, “Quand il me prend dans ses bras, il me parle tout bas, je vois la vie en rose,” which translates to “When he holds me in his arms, he speaks to me softly, I see life in pink,” captures the feeling of being in love and the sense of joy and happiness it brings.

Edith Piaf’s version of “La Vie en Rose,” released in 1947, is perhaps the most well-known and has been featured in numerous films and television shows. Piaf’s version helped popularize the song and cement its status as a classic.

Other notable versions of “La Vie en Rose” include those by Louis Armstrong, Grace Jones, and Christina Aguilera. The song has been covered by artists in a wide range of genres, including pop, jazz, and electronic.

In addition to its popularity in music, “La Vie en Rose” has also had a significant cultural impact. The song was inducted into the Grammy Hall of Fame in 1998 and has been referenced in popular culture numerous times. It has been featured in numerous films and television shows, and has become a popular choice for wedding ceremonies and other special occasions.

Overall, “La Vie en Rose” is a timeless and enduring classic that continues to capture the hearts and imaginations of listeners all over the world.

If you liked La Vie En Rose guitar tab then share it with all the guitar beginners.