Sleepwalk Guitar Tab | Easy Guitar Tabs

0
84
sleepwalk guitar tab

Sleepwalk Guitar Tab

“Sleepwalk” is an instrumental rock song composed by Santo & Johnny Farina. It was released as a single in 1959 and became a hit, reaching the top of the charts in the United States. The song features a distinctive guitar melody played on a steel guitar and has become a classic of instrumental rock music.

Santo & Johnny Farina were a duo composed of brothers Santo and Johnny Farina. They were known for their unique sound, which combined elements of rock and roll, blues, and Latin music. “Sleepwalk” was their biggest hit and has been covered by many artists over the years.

The song’s melody is characterized by its use of a steel guitar, which gives it a dreamy and ethereal sound. The song’s lyrics, which are spoken rather than sung, describe a person’s feelings of love and longing while they sleepwalk. The song has been used in numerous films and television shows and has become a classic of instrumental rock music.

Read Also: Never Gonna Give You Up Guitar Tab | Easy Guitar Tabs

Sleepwalk Easy Guitar Tab

We will use Capo on 1 Fret

 
 [Intro]
 
e|---------5-5-5---------------------10/12-7---------------|
B|-5-5-5---5-5-5----------------8/10-----------------------|
G|-5-5-5-----------1-1-1-1-1-4-----------------2--2--2-2-4-|
D|-----------------3-3-3-3-3-5-----------------3--3--3-3-5-|
A|---------------------------------------------------------|
E|---------------------------------------------------------|
 
 
[Verse]
 
e|--------------------------------------------------------0h3p0-----|
B|-11/13---8---6-8-9---8--6--11/13---8---6-8-9---8--6--8--------1---|
G|-------------7-9-10--9--7--------------7-9-10--9--7--9----------2-|
D|------------------------------------------------------------------|
A|------------------------------------------------------------------|
E|------------------------------------------------------------------|
 
e|----------------------10/12-7--------------------------------------|
B|-1-1-5--5--5-5-5-8/10-----------------------11/13--8--6-8-9---8--6-|
G|-2-2-5--5--5-5-5---------------2--2--2-2-4------------7-9-10--9--7-|
D|-------------------------------3--3--3-3-5-------------------------|
A|-------------------------------------------------------------------|
E|-------------------------------------------------------------------|
 
e|---------------------------0h3p0-----------------------------------|
B|-11/13--8--6-8-9---8--6--8-------1----1-1-5--5--5-5----------------|
G|-----------7-9-10--9--7--9---------2--2-2-5--5--5-5-5--2--2--2-2-5-|
D|----------------------------------------------------5--3--3--3-3-5-|
A|-------------------------------------------------------------------|
E|-------------------------------------------------------------------|
 
e|---------12-12--10-8------12--10--8--------------0------|
B|---10----------------9--------------8-8----10------8----|
G|-5----------------------------------9-9----9-------9----|
D|--------------------------------------------------------|
A|--------------------------------------------------------|
E|--------------------------------------------------------|
 
e|---------12--10-5/8-----12--10--8---------------------|
B|---10---------------9-------------8-8--8-10--10--10-8-|
G|-5--------------------------------9-9--9-9---9---9--9-|
D|------------------------------------------------------|
A|------------------------------------------------------|
E|------------------------------------------------------|
 
e|-------------------------------------------------------0h3p0-------|
B|-11/13---8---6-8-9---8--6--11/13--8---6-8-9---8--6--8--------1-----|
G|-------------7-9-10--9--7-------------7-9-10--9--7--9----------2-2-|
D|-------------------------------------------------------------------|
A|-------------------------------------------------------------------|
E|-------------------------------------------------------------------|
 
e|---------------------------24\19--------------------6------|
B|-1-1-5--5--4--3------20/22-----------6------12------6------|
G|-2-2-5--5--5--4----------------------6------12------6------|
D|-------------------------------------6------11------6------|
A|-------------------------------------8------12------8------|
E|-------------------------------------9------12------9------|
 
 
***********************************
 
| /   Slide up
| \   Slide down
| h   Hammer-on
| p   Pull-off
 
***********************************