Never Gonna Give You Up Guitar Tab | Easy Guitar Tabs

0
93
never gonna give you up guitar tab

Never Gonna Give You Up Guitar Tab

“Never Gonna Give You Up” is a song by the English singer and songwriter Rick Astley. It was released as a single in 1987 and became a global phenomenon, reaching the top of the charts in 25 countries. The song is known for its catchy pop melody and Astley’s distinctive smooth vocal style.

The song’s lyrics describe a person’s commitment to never giving up on their loved one, even when things get tough. The song’s message of resilience and perseverance has made it a popular choice for use in memes and internet culture, where it has become known as a “rickroll.”

Read Also: Autumn Leaves Guitar Tab | Easy Guitar Tabs

Never Gonna Give You Up Tab

Here are the guitar tabs for the song:

     G    A    F#m  Bm
eb|----------------------|
Bb|----------------------|
Gb|-----------------4----|
Db|--5----7----4----4----|
Ab|--5----7----4----2----|
Eb|--3----5----2---------|
 
[Intro]
G   A   F#m  Bm   x6
 
[Verse]
G                      A
We're no strangers to love
G                      A
You know the rules and so do I
G                            A
A full commitment's what I'm thinking of
G                               A
You wouldn't get this from any other guy
G             A
I just wanna tell you how I'm feeling
G              A
Gotta make you understand
 
[Chorus]
             G       A
Never gonna give you up
             F#m     Bm
Never gonna let you down
             G   A          F#    Bm
Never gonna run around and desert you
             G       A
Never gonna make you cry
             F#m     Bm
Never gonna say goodbye
             G   A          F#   Bm
Never gonna tell a lie and hurt you
 
[Verse]
G                       A
We've known each other for so long
G                             A
Your heart's been aching but you're too shy to say it
G                                A
Inside we both know what's been going on
G                           A
We know the game and we're gonna play it
G           A
And if you ask me how I'm feeling
G                         A
Don't tell me you're too blind to see
 
[Chorus]
             G       A
Never gonna give you up
             F#m     Bm
Never gonna let you down
             G   A          F#    Bm
Never gonna run around and desert you
             G       A
Never gonna make you cry
             F#m     Bm
Never gonna say goodbye
             G   A          F#   Bm
Never gonna tell a lie and hurt you
             G       A
Never gonna give you up
             F#m     Bm
Never gonna let you down
             G   A          F#    Bm
Never gonna run around and desert you
             G       A
Never gonna make you cry
             F#m     Bm
Never gonna say goodbye
             G   A          F#   Bm
Never gonna tell a lie and hurt you
 
[Guitar Solo]
 
eb|------------------------------|---------------------------------------------|
Bb|------------------------------|---------------------------------------------|
Gb|---------7-h-9---9-\-11-11-9--|--------------7-\-9-9-7----------------------|
Db|---7-h-9----------------------|--7-h-9-p-7----------------------------------|
Ab|------------------------------|---------------------------------------------|
Eb|------------------------------|---------------------------------------------|
 
eb|----------------------------------------------------------------------------|
Bb|----------------------------------------------------------------------------|
Gb|--------------6-\-7-6------7-\-9--------------------------------------------|
Db|---7-h-9-p-7----------9-7---------------------------------------------------|
Ab|----------------------------------------------------------------------------|
Eb|----------------------------------------------------------------------------|
 
eb|------------------------------|---------------------------------------------|
Bb|------------------------------|-------------8-\-10--------------------------|
Gb|---------7-h-9---9-\-11-11-9--|---------------------6-7-6-------------------|
Db|---7-h-9----------------------|--7-h-9-p-7-----------------9----------------|
Ab|------------------------------|---------------------------------------------|
Eb|------------------------------|---------------------------------------------|
 
eb|----------------------------------------------------------------------------|
Bb|----------------------------------------------------------------------------|
Gb|--------------6-\-7-6------7-\-9--------------------------------------------|
Db|---7-h-9-p-7----------9-7---------------------------------------------------|
Ab|----------------------------------------------------------------------------|
Eb|----------------------------------------------------------------------------|
 
[Verse]
G                       A
We've known each other for so long
G                             A
Your heart's been aching but you're too shy to say it
G                                A
Inside we both know what's been going on
G                           A
We know the game and we're gonna play it
G           A
And if you ask me how I'm feeling
G                         A
Don't tell me you're too blind to see
 
[Chorus]
             G       A
Never gonna give you up
             F#m     Bm
Never gonna let you down
             G   A          F#    Bm
Never gonna run around and desert you
             G       A
Never gonna make you cry
             F#m     Bm
Never gonna say goodbye
             G   A          F#   Bm
Never gonna tell a lie and hurt you
             G       A
Never gonna give you up
             F#m     Bm
Never gonna let you down
             G   A          F#    Bm
Never gonna run around and desert you
             G       A
Never gonna make you cry
             F#m     Bm
Never gonna say goodbye
             G   A          F#   Bm
Never gonna tell a lie and hurt you
             G       A
Never gonna give you up
             F#m     Bm
Never gonna let you down
             G   A          F#    Bm
Never gonna run around and desert you
             G       A
Never gonna make you cry
 
 
************************************
 
| h  Hammer-on
| \  Slide down
| p  Pull-off
 
************************************